ISO-10303-21;
HEADER;
FILE_DESCRIPTION (( 'STEP AP203' ),
    '1' );
FILE_NAME ('QB-CTZQWP-10-795-M.STEP',
    '2020-12-24T01:48:44',
    ( '' ),
    ( '' ),
    'SwSTEP 2.0',
    'SolidWorks 2020',
    '' );
FILE_SCHEMA (( 'CONFIG_CONTROL_DESIGN' ));
ENDSEC;

DATA;
#1 = ORIENTED_EDGE ( 'NONE', *, *, #268, .F. ) ;
#2 = COORDINATED_UNIVERSAL_TIME_OFFSET ( 8, 0, .AHEAD. ) ;
#3 = EDGE_LOOP ( 'NONE', ( #132, #167 ) ) ;
#4 = CIRCLE ( 'NONE', #121, 12.69999999999999929 ) ;
#5 = ORIENTED_EDGE ( 'NONE', *, *, #191, .T. ) ;
#6 = ORIENTED_EDGE ( 'NONE', *, *, #160, .F. ) ;
#7 = CYLINDRICAL_SURFACE ( 'NONE', #175, 12.69999999999999929 ) ;
#8 = DIRECTION ( 'NONE',  ( -1.000000000000000000, -0.000000000000000000, -0.000000000000000000 ) ) ;
#9 = PLANE ( 'NONE',  #152 ) ;
#10 = CARTESIAN_POINT ( 'NONE',  ( 3.000000000000000000, 0.000000000000000000, 0.000000000000000000 ) ) ;
#11 = FACE_OUTER_BOUND ( 'NONE', #214, .T. ) ;
#12 = PLANE ( 'NONE',  #261 ) ;
#13 = CARTESIAN_POINT ( 'NONE',  ( -1.614212418857619014, 0.000000000000000000, 12.69999999999999929 ) ) ;
#14 = DIRECTION ( 'NONE',  ( 0.000000000000000000, 0.000000000000000000, 1.000000000000000000 ) ) ;
#15 = PLANE ( 'NONE',  #22 ) ;
#16 = ADVANCED_FACE ( 'NONE', ( #296, #54 ), #112, .F. ) ;
#17 = DIRECTION ( 'NONE',  ( 0.000000000000000000, 0.000000000000000000, 1.000000000000000000 ) ) ;
#18 = AXIS2_PLACEMENT_3D ( 'NONE', #155, #205, #97 ) ;
#19 = CALENDAR_DATE ( 2020, 24, 12 ) ;
#20 = VERTEX_POINT ( 'NONE', #252 ) ;
#21 = PERSON_AND_ORGANIZATION ( #59, #312 ) ;
#22 = AXIS2_PLACEMENT_3D ( 'NONE', #284, #308, #39 ) ;
#23 = EDGE_LOOP ( 'NONE', ( #189, #334 ) ) ;
#24 = ORIENTED_EDGE ( 'NONE', *, *, #183, .F. ) ;
#25 = DATE_TIME_ROLE ( 'classification_date' ) ;
#26 = ORIENTED_EDGE ( 'NONE', *, *, #160, .T. ) ;
#27 = ADVANCED_FACE ( 'NONE', ( #197 ), #222, .T. ) ;
#28 = ORIENTED_EDGE ( 'NONE', *, *, #159, .T. ) ;
#29 = EDGE_LOOP ( 'NONE', ( #271, #98, #318, #24 ) ) ;
#30 = EDGE_CURVE ( 'NONE', #137, #20, #218, .T. ) ;
#31 = DIRECTION ( 'NONE',  ( -1.000000000000000000, -0.000000000000000000, -0.000000000000000000 ) ) ;
#32 = DIRECTION ( 'NONE',  ( -1.000000000000000000, -0.000000000000000000, -0.000000000000000000 ) ) ;
#33 = DIRECTION ( 'NONE',  ( -1.000000000000000000, -0.000000000000000000, -0.000000000000000000 ) ) ;
#34 = CARTESIAN_POINT ( 'NONE',  ( -1.614212418857619014, 0.000000000000000000, 0.000000000000000000 ) ) ;
#35 = CARTESIAN_POINT ( 'NONE',  ( -3.000000000000000000, 6.123233995736766282E-16, -5.000000000000000000 ) ) ;
#36 = FACE_OUTER_BOUND ( 'NONE', #209, .T. ) ;
#37 = DIRECTION ( 'NONE',  ( -1.000000000000000000, -0.000000000000000000, -0.000000000000000000 ) ) ;
#38 = CARTESIAN_POINT ( 'NONE',  ( -3.000000000000000000, 1.555301434917138433E-15, -12.69999999999999929 ) ) ;
#39 = DIRECTION ( 'NONE',  ( 0.000000000000000000, 0.000000000000000000, -1.000000000000000000 ) ) ;
#40 = CC_DESIGN_PERSON_AND_ORGANIZATION_ASSIGNMENT ( #21, #102, ( #282 ) ) ;
#41 =( LENGTH_UNIT ( ) NAMED_UNIT ( * ) SI_UNIT ( .MILLI., .METRE. ) );
#42 = DIRECTION ( 'NONE',  ( 0.000000000000000000, 0.000000000000000000, 1.000000000000000000 ) ) ;
#43 =( NAMED_UNIT ( * ) PLANE_ANGLE_UNIT ( ) SI_UNIT ( $, .RADIAN. ) );
#44 = APPROVAL_STATUS ( 'not_yet_approved' ) ;
#45 = ORIENTED_EDGE ( 'NONE', *, *, #159, .F. ) ;
#46 = PERSON_AND_ORGANIZATION ( #59, #312 ) ;
#47 = EDGE_LOOP ( 'NONE', ( #74, #313 ) ) ;
#48 = APPROVAL_DATE_TIME ( #289, #120 ) ;
#49 = CC_DESIGN_APPROVAL ( #120, ( #66 ) ) ;
#50 = EDGE_CURVE ( 'NONE', #192, #52, #309, .T. ) ;
#51 = DATE_TIME_ROLE ( 'creation_date' ) ;
#52 = VERTEX_POINT ( 'NONE', #35 ) ;
#53 = ORIENTED_EDGE ( 'NONE', *, *, #315, .T. ) ;
#54 = FACE_OUTER_BOUND ( 'NONE', #316, .T. ) ;
#55 = PRODUCT_DEFINITION_SHAPE ( 'NONE', 'NONE',  #66 ) ;
#56 = DIRECTION ( 'NONE',  ( 0.000000000000000000, 0.000000000000000000, -1.000000000000000000 ) ) ;
#57 = CARTESIAN_POINT ( 'NONE',  ( -1.250000000000000222, 0.000000000000000000, 0.000000000000000000 ) ) ;
#58 = ADVANCED_FACE ( 'NONE', ( #247 ), #7, .T. ) ;
#59 = PERSON ( 'UNSPECIFIED', 'UNSPECIFIED', 'UNSPECIFIED', ('UNSPECIFIED'), ('UNSPECIFIED'), ('UNSPECIFIED') ) ;
#60 = CARTESIAN_POINT ( 'NONE',  ( -3.000000000000000000, 0.000000000000000000, 5.000000000000000000 ) ) ;
#61 = DIRECTION ( 'NONE',  ( 0.000000000000000000, 0.000000000000000000, 1.000000000000000000 ) ) ;
#62 = CIRCLE ( 'NONE', #333, 5.000000000000000000 ) ;
#63 = LINE ( 'NONE', #83, #144 ) ;
#64 = CARTESIAN_POINT ( 'NONE',  ( -1.614212418857619014, 0.000000000000000000, 0.000000000000000000 ) ) ;
#65 = CARTESIAN_POINT ( 'NONE',  ( 3.000000000000000000, 0.000000000000000000, 0.000000000000000000 ) ) ;
#66 = PRODUCT_DEFINITION ( 'UNKNOWN', '', #282, #117 ) ;
#67 = MANIFOLD_SOLID_BREP ( 'Ðý×', #244 ) ;
#68 = CIRCLE ( 'NONE', #194, 12.69999999999999929 ) ;
#69 = AXIS2_PLACEMENT_3D ( 'NONE', #323, #225, #85 ) ;
#70 = DIRECTION ( 'NONE',  ( -1.000000000000000000, -0.000000000000000000, -0.000000000000000000 ) ) ;
#71 = ADVANCED_FACE ( 'NONE', ( #277, #249 ), #9, .F. ) ;
#72 = EDGE_CURVE ( 'NONE', #137, #106, #298, .T. ) ;
#73 = CIRCLE ( 'NONE', #245, 5.000000000000000000 ) ;
#74 = ORIENTED_EDGE ( 'NONE', *, *, #188, .T. ) ;
#75 = PERSON_AND_ORGANIZATION_ROLE ( 'classification_officer' ) ;
#76 = APPROVAL_ROLE ( '' ) ;
#77 = ORIENTED_EDGE ( 'NONE', *, *, #50, .F. ) ;
#78 = APPROVAL_DATE_TIME ( #216, #206 ) ;
#79 = AXIS2_PLACEMENT_3D ( 'NONE', #88, #300, #84 ) ;
#80 = ORIENTED_EDGE ( 'NONE', *, *, #30, .T. ) ;
#81 = EDGE_CURVE ( 'NONE', #124, #212, #290, .T. ) ;
#82 = CARTESIAN_POINT ( 'NONE',  ( -3.000000000000000000, 5.000000000000000000, 0.000000000000000000 ) ) ;
#83 = CARTESIAN_POINT ( 'NONE',  ( -1.614212418857619014, 0.000000000000000000, 5.000000000000000888 ) ) ;
#84 = DIRECTION ( 'NONE',  ( 0.000000000000000000, 0.000000000000000000, 1.000000000000000000 ) ) ;
#85 = DIRECTION ( 'NONE',  ( 0.000000000000000000, 0.000000000000000000, 1.000000000000000000 ) ) ;
#86 = CC_DESIGN_DATE_AND_TIME_ASSIGNMENT ( #335, #51, ( #66 ) ) ;
#87 = CARTESIAN_POINT ( 'NONE',  ( 3.000000000000000000, 0.000000000000000000, 0.000000000000000000 ) ) ;
#88 = CARTESIAN_POINT ( 'NONE',  ( -1.614212418857619014, 0.000000000000000000, 0.000000000000000000 ) ) ;
#89 = DIRECTION ( 'NONE',  ( -1.000000000000000000, -0.000000000000000000, -0.000000000000000000 ) ) ;
#90 = ADVANCED_FACE ( 'NONE', ( #150 ), #12, .F. ) ;
#91 = CARTESIAN_POINT ( 'NONE',  ( 3.000000000000000000, 0.000000000000000000, 5.000000000000001776 ) ) ;
#92 = CC_DESIGN_PERSON_AND_ORGANIZATION_ASSIGNMENT ( #131, #213, ( #66 ) ) ;
#93 = APPLICATION_CONTEXT ( 'configuration controlled 3d designs of mechanical parts and assemblies' ) ;
#94 = DIRECTION ( 'NONE',  ( -1.000000000000000000, -0.000000000000000000, -0.000000000000000000 ) ) ;
#95 = CC_DESIGN_APPROVAL ( #206, ( #224 ) ) ;
#96 = ADVANCED_FACE ( 'NONE', ( #11 ), #226, .F. ) ;
#97 = DIRECTION ( 'NONE',  ( 1.000000000000000000, 0.000000000000000000, 0.000000000000000000 ) ) ;
#98 = ORIENTED_EDGE ( 'NONE', *, *, #72, .T. ) ;
#99 = AXIS2_PLACEMENT_3D ( 'NONE', #177, #280, #228 ) ;
#100 = PERSON_AND_ORGANIZATION ( #59, #312 ) ;
#101 = VERTEX_POINT ( 'NONE', #118 ) ;
#102 = PERSON_AND_ORGANIZATION_ROLE ( 'design_supplier' ) ;
#103 = ORIENTED_EDGE ( 'NONE', *, *, #322, .T. ) ;
#104 = ORIENTED_EDGE ( 'NONE', *, *, #183, .T. ) ;
#105 = CALENDAR_DATE ( 2020, 24, 12 ) ;
#106 = VERTEX_POINT ( 'NONE', #38 ) ;
#107 = COORDINATED_UNIVERSAL_TIME_OFFSET ( 8, 0, .AHEAD. ) ;
#108 = LOCAL_TIME ( 9, 48, 44.00000000000000000, #128 ) ;
#109 = ADVANCED_FACE ( 'NONE', ( #36 ), #230, .F. ) ;
#110 = VERTEX_POINT ( 'NONE', #199 ) ;
#111 = PRODUCT ( 'QB-CTZQWP-10-795-M', 'QB-CTZQWP-10-795-M', '', ( #311 ) ) ;
#112 = PLANE ( 'NONE',  #134 ) ;
#113 = CARTESIAN_POINT ( 'NONE',  ( 3.000000000000000000, 12.69999999999999929, 0.000000000000000000 ) ) ;
#114 = CARTESIAN_POINT ( 'NONE',  ( -1.250000000000000222, 6.123233995736767268E-16, -5.000000000000000888 ) ) ;
#115 = CIRCLE ( 'NONE', #154, 5.000000000000001776 ) ;
#116 = CARTESIAN_POINT ( 'NONE',  ( -1.614212418857619014, 1.555301434917138433E-15, -12.69999999999999929 ) ) ;
#117 = DESIGN_CONTEXT ( 'detailed design', #156, 'design' ) ;
#118 = CARTESIAN_POINT ( 'NONE',  ( 3.000000000000000000, 6.123233995736768255E-16, -5.000000000000001776 ) ) ;
#119 = DIRECTION ( 'NONE',  ( -1.000000000000000000, -0.000000000000000000, -0.000000000000000000 ) ) ;
#120 = APPROVAL ( #44, 'UNSPECIFIED' ) ;
#121 = AXIS2_PLACEMENT_3D ( 'NONE', #198, #299, #331 ) ;
#122 = LINE ( 'NONE', #231, #153 ) ;
#123 = APPLICATION_PROTOCOL_DEFINITION ( 'international standard', 'config_control_design', 1994, #93 ) ;
#124 = VERTEX_POINT ( 'NONE', #114 ) ;
#125 = EDGE_CURVE ( 'NONE', #20, #137, #68, .T. ) ;
#126 = APPROVAL_ROLE ( '' ) ;
#127 = ORIENTED_EDGE ( 'NONE', *, *, #273, .T. ) ;
#128 = COORDINATED_UNIVERSAL_TIME_OFFSET ( 8, 0, .AHEAD. ) ;
#129 = CIRCLE ( 'NONE', #180, 5.000000000000000888 ) ;
#130 = EDGE_LOOP ( 'NONE', ( #239, #288 ) ) ;
#131 = PERSON_AND_ORGANIZATION ( #59, #312 ) ;
#132 = ORIENTED_EDGE ( 'NONE', *, *, #315, .F. ) ;
#133 = VERTEX_POINT ( 'NONE', #174 ) ;
#134 = AXIS2_PLACEMENT_3D ( 'NONE', #82, #325, #278 ) ;
#135 = CC_DESIGN_APPROVAL ( #217, ( #282 ) ) ;
#136 = ADVANCED_FACE ( 'NONE', ( #179 ), #202, .F. ) ;
#137 = VERTEX_POINT ( 'NONE', #141 ) ;
#138 = CARTESIAN_POINT ( 'NONE',  ( 1.250000000000000222, 5.000000000000000000, 0.000000000000000000 ) ) ;
#139 = DIRECTION ( 'NONE',  ( -1.000000000000000000, -0.000000000000000000, -0.000000000000000000 ) ) ;
#140 = DIRECTION ( 'NONE',  ( 0.000000000000000000, 0.000000000000000000, 1.000000000000000000 ) ) ;
#141 = CARTESIAN_POINT ( 'NONE',  ( 3.000000000000000000, 1.555301434917138433E-15, -12.69999999999999929 ) ) ;
#142 = CC_DESIGN_PERSON_AND_ORGANIZATION_ASSIGNMENT ( #158, #260, ( #111 ) ) ;
#143 = AXIS2_PLACEMENT_3D ( 'NONE', #57, #173, #148 ) ;
#144 = VECTOR ( 'NONE', #302, 1000.000000000000000 ) ;
#145 = DIRECTION ( 'NONE',  ( -1.000000000000000000, 0.000000000000000000, -0.000000000000000000 ) ) ;
#146 = DIRECTION ( 'NONE',  ( -1.000000000000000000, -0.000000000000000000, -0.000000000000000000 ) ) ;
#147 = ADVANCED_BREP_SHAPE_REPRESENTATION ( 'QB-CTZQWP-10-795-M', ( #67, #18 ), #207 ) ;
#148 = DIRECTION ( 'NONE',  ( 0.000000000000000000, 0.000000000000000000, -1.000000000000000000 ) ) ;
#149 = LINE ( 'NONE', #13, #286 ) ;
#150 = FACE_OUTER_BOUND ( 'NONE', #3, .T. ) ;
#151 = DIRECTION ( 'NONE',  ( -1.000000000000000000, -0.000000000000000000, -0.000000000000000000 ) ) ;
#152 = AXIS2_PLACEMENT_3D ( 'NONE', #113, #319, #201 ) ;
#153 = VECTOR ( 'NONE', #94, 1000.000000000000000 ) ;
#154 = AXIS2_PLACEMENT_3D ( 'NONE', #65, #32, #248 ) ;
#155 = CARTESIAN_POINT ( 'NONE',  ( 0.000000000000000000, 0.000000000000000000, 0.000000000000000000 ) ) ;
#156 = APPLICATION_CONTEXT ( 'configuration controlled 3d designs of mechanical parts and assemblies' ) ;
#157 = AXIS2_PLACEMENT_3D ( 'NONE', #223, #146, #326 ) ;
#158 = PERSON_AND_ORGANIZATION ( #59, #312 ) ;
#159 = EDGE_CURVE ( 'NONE', #184, #110, #63, .T. ) ;
#160 = EDGE_CURVE ( 'NONE', #52, #192, #62, .T. ) ;
#161 = PERSON_AND_ORGANIZATION ( #59, #312 ) ;
#162 = ORIENTED_EDGE ( 'NONE', *, *, #191, .F. ) ;
#163 = SECURITY_CLASSIFICATION_LEVEL ( 'unclassified' ) ;
#164 = VECTOR ( 'NONE', #70, 1000.000000000000000 ) ;
#165 = VERTEX_POINT ( 'NONE', #255 ) ;
#166 = DATE_AND_TIME ( #314, #251 ) ;
#167 = ORIENTED_EDGE ( 'NONE', *, *, #254, .F. ) ;
#168 = EDGE_LOOP ( 'NONE', ( #215, #80, #104, #1 ) ) ;
#169 = AXIS2_PLACEMENT_3D ( 'NONE', #171, #33, #61 ) ;
#170 = CC_DESIGN_SECURITY_CLASSIFICATION ( #224, ( #282 ) ) ;
#171 = CARTESIAN_POINT ( 'NONE',  ( 3.000000000000000000, 0.000000000000000000, 0.000000000000000000 ) ) ;
#172 = CARTESIAN_POINT ( 'NONE',  ( -1.614212418857619014, 0.000000000000000000, 0.000000000000000000 ) ) ;
#173 = DIRECTION ( 'NONE',  ( 1.000000000000000000, 0.000000000000000000, 0.000000000000000000 ) ) ;
#174 = CARTESIAN_POINT ( 'NONE',  ( 1.250000000000000444, 6.123233995736766282E-16, -5.000000000000000000 ) ) ;
#175 = AXIS2_PLACEMENT_3D ( 'NONE', #172, #31, #140 ) ;
#176 = APPROVAL_PERSON_ORGANIZATION ( #100, #120, #76 ) ;
#177 = CARTESIAN_POINT ( 'NONE',  ( -3.000000000000000000, 0.000000000000000000, 0.000000000000000000 ) ) ;
#178 = DIRECTION ( 'NONE',  ( 0.000000000000000000, 0.000000000000000000, 1.000000000000000000 ) ) ;
#179 = FACE_OUTER_BOUND ( 'NONE', #265, .T. ) ;
#180 = AXIS2_PLACEMENT_3D ( 'NONE', #196, #250, #56 ) ;
#181 = FACE_OUTER_BOUND ( 'NONE', #23, .T. ) ;
#182 = LOCAL_TIME ( 9, 48, 44.00000000000000000, #2 ) ;
#183 = EDGE_CURVE ( 'NONE', #20, #165, #149, .T. ) ;
#184 = VERTEX_POINT ( 'NONE', #91 ) ;
#185 = CALENDAR_DATE ( 2020, 24, 12 ) ;
#186 = ORIENTED_EDGE ( 'NONE', *, *, #330, .T. ) ;
#187 = CALENDAR_DATE ( 2020, 24, 12 ) ;
#188 = EDGE_CURVE ( 'NONE', #184, #101, #200, .T. ) ;
#189 = ORIENTED_EDGE ( 'NONE', *, *, #235, .F. ) ;
#190 = SHAPE_DEFINITION_REPRESENTATION ( #55, #147 ) ;
#191 = EDGE_CURVE ( 'NONE', #124, #52, #328, .T. ) ;
#192 = VERTEX_POINT ( 'NONE', #60 ) ;
#193 = VECTOR ( 'NONE', #37, 1000.000000000000000 ) ;
#194 = AXIS2_PLACEMENT_3D ( 'NONE', #87, #89, #253 ) ;
#195 = LOCAL_TIME ( 9, 48, 44.00000000000000000, #269 ) ;
#196 = CARTESIAN_POINT ( 'NONE',  ( -1.250000000000000222, 0.000000000000000000, 0.000000000000000000 ) ) ;
#197 = FACE_OUTER_BOUND ( 'NONE', #168, .T. ) ;
#198 = CARTESIAN_POINT ( 'NONE',  ( -3.000000000000000000, 0.000000000000000000, 0.000000000000000000 ) ) ;
#199 = CARTESIAN_POINT ( 'NONE',  ( 1.250000000000000444, 0.000000000000000000, 5.000000000000000000 ) ) ;
#200 = CIRCLE ( 'NONE', #236, 5.000000000000001776 ) ;
#201 = DIRECTION ( 'NONE',  ( -0.000000000000000000, 0.000000000000000000, 1.000000000000000000 ) ) ;
#202 = CYLINDRICAL_SURFACE ( 'NONE', #310, 5.000000000000000888 ) ;
#203 = CC_DESIGN_PERSON_AND_ORGANIZATION_ASSIGNMENT ( #272, #75, ( #224 ) ) ;
#204 = CARTESIAN_POINT ( 'NONE',  ( -1.250000000000000222, 0.000000000000000000, 5.000000000000000888 ) ) ;
#205 = DIRECTION ( 'NONE',  ( 0.000000000000000000, 0.000000000000000000, 1.000000000000000000 ) ) ;
#206 = APPROVAL ( #238, 'UNSPECIFIED' ) ;
#207 =( GEOMETRIC_REPRESENTATION_CONTEXT ( 3 ) GLOBAL_UNCERTAINTY_ASSIGNED_CONTEXT ( ( #270 ) ) GLOBAL_UNIT_ASSIGNED_CONTEXT ( ( #41, #43, #208 ) ) REPRESENTATION_CONTEXT ( 'NONE', 'WORKASPACE' ) );
#208 =( NAMED_UNIT ( * ) SI_UNIT ( $, .STERADIAN. ) SOLID_ANGLE_UNIT ( ) );
#209 = EDGE_LOOP ( 'NONE', ( #317, #5, #26, #274 ) ) ;
#210 = APPROVAL_DATE_TIME ( #166, #217 ) ;
#211 = ADVANCED_FACE ( 'NONE', ( #276 ), #257, .F. ) ;
#212 = VERTEX_POINT ( 'NONE', #204 ) ;
#213 = PERSON_AND_ORGANIZATION_ROLE ( 'creator' ) ;
#214 = EDGE_LOOP ( 'NONE', ( #162, #237, #127, #240 ) ) ;
#215 = ORIENTED_EDGE ( 'NONE', *, *, #72, .F. ) ;
#216 = DATE_AND_TIME ( #105, #182 ) ;
#217 = APPROVAL ( #266, 'UNSPECIFIED' ) ;
#218 = CIRCLE ( 'NONE', #169, 12.69999999999999929 ) ;
#219 = ORIENTED_EDGE ( 'NONE', *, *, #221, .F. ) ;
#220 = ORIENTED_EDGE ( 'NONE', *, *, #322, .F. ) ;
#221 = EDGE_CURVE ( 'NONE', #101, #184, #115, .T. ) ;
#222 = CYLINDRICAL_SURFACE ( 'NONE', #79, 12.69999999999999929 ) ;
#223 = CARTESIAN_POINT ( 'NONE',  ( -1.614212418857619014, 0.000000000000000000, 0.000000000000000000 ) ) ;
#224 = SECURITY_CLASSIFICATION ( '', '', #163 ) ;
#225 = DIRECTION ( 'NONE',  ( -1.000000000000000000, -0.000000000000000000, -0.000000000000000000 ) ) ;
#226 = CYLINDRICAL_SURFACE ( 'NONE', #301, 5.000000000000000888 ) ;
#227 = DIRECTION ( 'NONE',  ( 0.000000000000000000, 0.000000000000000000, 1.000000000000000000 ) ) ;
#228 = DIRECTION ( 'NONE',  ( 0.000000000000000000, 0.000000000000000000, 1.000000000000000000 ) ) ;
#229 = DIRECTION ( 'NONE',  ( 0.000000000000000000, 0.000000000000000000, 1.000000000000000000 ) ) ;
#230 = CYLINDRICAL_SURFACE ( 'NONE', #157, 5.000000000000000888 ) ;
#231 = CARTESIAN_POINT ( 'NONE',  ( -1.614212418857619014, 6.123233995736767268E-16, -5.000000000000000888 ) ) ;
#232 = CIRCLE ( 'NONE', #69, 5.000000000000000000 ) ;
#233 = CARTESIAN_POINT ( 'NONE',  ( -3.000000000000000000, 0.000000000000000000, 0.000000000000000000 ) ) ;
#234 = CARTESIAN_POINT ( 'NONE',  ( -1.614212418857619014, 0.000000000000000000, 5.000000000000000888 ) ) ;
#235 = EDGE_CURVE ( 'NONE', #212, #124, #129, .T. ) ;
#236 = AXIS2_PLACEMENT_3D ( 'NONE', #10, #151, #305 ) ;
#237 = ORIENTED_EDGE ( 'NONE', *, *, #81, .T. ) ;
#238 = APPROVAL_STATUS ( 'not_yet_approved' ) ;
#239 = ORIENTED_EDGE ( 'NONE', *, *, #125, .F. ) ;
#240 = ORIENTED_EDGE ( 'NONE', *, *, #50, .T. ) ;
#241 = APPROVAL_ROLE ( '' ) ;
#242 = ORIENTED_EDGE ( 'NONE', *, *, #188, .F. ) ;
#243 = PERSON_AND_ORGANIZATION ( #59, #312 ) ;
#244 = CLOSED_SHELL ( 'NONE', ( #58, #109, #136, #90, #211, #96, #16, #27, #71, #293 ) ) ;
#245 = AXIS2_PLACEMENT_3D ( 'NONE', #283, #258, #17 ) ;
#246 = ORIENTED_EDGE ( 'NONE', *, *, #254, .T. ) ;
#247 = FACE_OUTER_BOUND ( 'NONE', #29, .T. ) ;
#248 = DIRECTION ( 'NONE',  ( 0.000000000000000000, 0.000000000000000000, 1.000000000000000000 ) ) ;
#249 = FACE_BOUND ( 'NONE', #47, .T. ) ;
#250 = DIRECTION ( 'NONE',  ( 1.000000000000000000, 0.000000000000000000, 0.000000000000000000 ) ) ;
#251 = LOCAL_TIME ( 9, 48, 44.00000000000000000, #264 ) ;
#252 = CARTESIAN_POINT ( 'NONE',  ( 3.000000000000000000, 0.000000000000000000, 12.69999999999999929 ) ) ;
#253 = DIRECTION ( 'NONE',  ( 0.000000000000000000, 0.000000000000000000, 1.000000000000000000 ) ) ;
#254 = EDGE_CURVE ( 'NONE', #133, #110, #232, .T. ) ;
#255 = CARTESIAN_POINT ( 'NONE',  ( -3.000000000000000000, 0.000000000000000000, 12.69999999999999929 ) ) ;
#256 = DIRECTION ( 'NONE',  ( -0.000000000000000000, 0.000000000000000000, 1.000000000000000000 ) ) ;
#257 = CYLINDRICAL_SURFACE ( 'NONE', #275, 5.000000000000000888 ) ;
#258 = DIRECTION ( 'NONE',  ( -1.000000000000000000, -0.000000000000000000, -0.000000000000000000 ) ) ;
#259 = LINE ( 'NONE', #234, #164 ) ;
#260 = PERSON_AND_ORGANIZATION_ROLE ( 'design_owner' ) ;
#261 = AXIS2_PLACEMENT_3D ( 'NONE', #138, #145, #256 ) ;
#262 = LOCAL_TIME ( 9, 48, 44.00000000000000000, #107 ) ;
#263 = APPLICATION_PROTOCOL_DEFINITION ( 'international standard', 'config_control_design', 1994, #156 ) ;
#264 = COORDINATED_UNIVERSAL_TIME_OFFSET ( 8, 0, .AHEAD. ) ;
#265 = EDGE_LOOP ( 'NONE', ( #219, #103, #246, #45 ) ) ;
#266 = APPROVAL_STATUS ( 'not_yet_approved' ) ;
#267 = AXIS2_PLACEMENT_3D ( 'NONE', #233, #329, #42 ) ;
#268 = EDGE_CURVE ( 'NONE', #106, #165, #4, .T. ) ;
#269 = COORDINATED_UNIVERSAL_TIME_OFFSET ( 8, 0, .AHEAD. ) ;
#270 = UNCERTAINTY_MEASURE_WITH_UNIT (LENGTH_MEASURE( 1.000000000000000082E-05 ), #41, 'distance_accuracy_value', 'NONE');
#271 = ORIENTED_EDGE ( 'NONE', *, *, #125, .T. ) ;
#272 = PERSON_AND_ORGANIZATION ( #59, #312 ) ;
#273 = EDGE_CURVE ( 'NONE', #212, #192, #259, .T. ) ;
#274 = ORIENTED_EDGE ( 'NONE', *, *, #273, .F. ) ;
#275 = AXIS2_PLACEMENT_3D ( 'NONE', #64, #307, #14 ) ;
#276 = FACE_OUTER_BOUND ( 'NONE', #294, .T. ) ;
#277 = FACE_OUTER_BOUND ( 'NONE', #130, .T. ) ;
#278 = DIRECTION ( 'NONE',  ( 0.000000000000000000, 0.000000000000000000, -1.000000000000000000 ) ) ;
#279 = APPROVAL_PERSON_ORGANIZATION ( #243, #217, #126 ) ;
#280 = DIRECTION ( 'NONE',  ( -1.000000000000000000, -0.000000000000000000, -0.000000000000000000 ) ) ;
#281 = DIRECTION ( 'NONE',  ( -1.000000000000000000, -0.000000000000000000, -0.000000000000000000 ) ) ;
#282 = PRODUCT_DEFINITION_FORMATION_WITH_SPECIFIED_SOURCE ( 'ANY', '', #111, .NOT_KNOWN. ) ;
#283 = CARTESIAN_POINT ( 'NONE',  ( 1.250000000000000444, 0.000000000000000000, 0.000000000000000000 ) ) ;
#284 = CARTESIAN_POINT ( 'NONE',  ( -1.250000000000000222, 5.000000000000000000, 0.000000000000000000 ) ) ;
#285 = PRODUCT_RELATED_PRODUCT_CATEGORY ( 'detail', '', ( #111 ) ) ;
#286 = VECTOR ( 'NONE', #119, 1000.000000000000000 ) ;
#287 = DATE_AND_TIME ( #185, #195 ) ;
#288 = ORIENTED_EDGE ( 'NONE', *, *, #30, .F. ) ;
#289 = DATE_AND_TIME ( #187, #262 ) ;
#290 = CIRCLE ( 'NONE', #143, 5.000000000000000888 ) ;
#291 = ORIENTED_EDGE ( 'NONE', *, *, #268, .T. ) ;
#292 = EDGE_LOOP ( 'NONE', ( #77, #6 ) ) ;
#293 = ADVANCED_FACE ( 'NONE', ( #181 ), #15, .F. ) ;
#294 = EDGE_LOOP ( 'NONE', ( #220, #242, #28, #53 ) ) ;
#295 = CC_DESIGN_PERSON_AND_ORGANIZATION_ASSIGNMENT ( #46, #332, ( #282 ) ) ;
#296 = FACE_BOUND ( 'NONE', #292, .T. ) ;
#297 = CARTESIAN_POINT ( 'NONE',  ( -1.614212418857619014, 6.123233995736767268E-16, -5.000000000000000888 ) ) ;
#298 = LINE ( 'NONE', #116, #193 ) ;
#299 = DIRECTION ( 'NONE',  ( -1.000000000000000000, -0.000000000000000000, -0.000000000000000000 ) ) ;
#300 = DIRECTION ( 'NONE',  ( -1.000000000000000000, -0.000000000000000000, -0.000000000000000000 ) ) ;
#301 = AXIS2_PLACEMENT_3D ( 'NONE', #304, #321, #229 ) ;
#302 = DIRECTION ( 'NONE',  ( -1.000000000000000000, -0.000000000000000000, -0.000000000000000000 ) ) ;
#303 = CIRCLE ( 'NONE', #267, 12.69999999999999929 ) ;
#304 = CARTESIAN_POINT ( 'NONE',  ( -1.614212418857619014, 0.000000000000000000, 0.000000000000000000 ) ) ;
#305 = DIRECTION ( 'NONE',  ( 0.000000000000000000, 0.000000000000000000, 1.000000000000000000 ) ) ;
#306 = CC_DESIGN_DATE_AND_TIME_ASSIGNMENT ( #287, #25, ( #224 ) ) ;
#307 = DIRECTION ( 'NONE',  ( -1.000000000000000000, -0.000000000000000000, -0.000000000000000000 ) ) ;
#308 = DIRECTION ( 'NONE',  ( 1.000000000000000000, 0.000000000000000000, 0.000000000000000000 ) ) ;
#309 = CIRCLE ( 'NONE', #99, 5.000000000000000000 ) ;
#310 = AXIS2_PLACEMENT_3D ( 'NONE', #34, #139, #227 ) ;
#311 = MECHANICAL_CONTEXT ( 'NONE', #93, 'mechanical' ) ;
#312 = ORGANIZATION ( 'UNSPECIFIED', 'UNSPECIFIED', '' ) ;
#313 = ORIENTED_EDGE ( 'NONE', *, *, #221, .T. ) ;
#314 = CALENDAR_DATE ( 2020, 24, 12 ) ;
#315 = EDGE_CURVE ( 'NONE', #110, #133, #73, .T. ) ;
#316 = EDGE_LOOP ( 'NONE', ( #186, #291 ) ) ;
#317 = ORIENTED_EDGE ( 'NONE', *, *, #235, .T. ) ;
#318 = ORIENTED_EDGE ( 'NONE', *, *, #330, .F. ) ;
#319 = DIRECTION ( 'NONE',  ( -1.000000000000000000, 0.000000000000000000, -0.000000000000000000 ) ) ;
#320 = VECTOR ( 'NONE', #8, 1000.000000000000000 ) ;
#321 = DIRECTION ( 'NONE',  ( -1.000000000000000000, -0.000000000000000000, -0.000000000000000000 ) ) ;
#322 = EDGE_CURVE ( 'NONE', #101, #133, #122, .T. ) ;
#323 = CARTESIAN_POINT ( 'NONE',  ( 1.250000000000000444, 0.000000000000000000, 0.000000000000000000 ) ) ;
#324 = CARTESIAN_POINT ( 'NONE',  ( -3.000000000000000000, 0.000000000000000000, 0.000000000000000000 ) ) ;
#325 = DIRECTION ( 'NONE',  ( 1.000000000000000000, 0.000000000000000000, 0.000000000000000000 ) ) ;
#326 = DIRECTION ( 'NONE',  ( 0.000000000000000000, 0.000000000000000000, 1.000000000000000000 ) ) ;
#327 = APPROVAL_PERSON_ORGANIZATION ( #161, #206, #241 ) ;
#328 = LINE ( 'NONE', #297, #320 ) ;
#329 = DIRECTION ( 'NONE',  ( -1.000000000000000000, -0.000000000000000000, -0.000000000000000000 ) ) ;
#330 = EDGE_CURVE ( 'NONE', #165, #106, #303, .T. ) ;
#331 = DIRECTION ( 'NONE',  ( 0.000000000000000000, 0.000000000000000000, 1.000000000000000000 ) ) ;
#332 = PERSON_AND_ORGANIZATION_ROLE ( 'creator' ) ;
#333 = AXIS2_PLACEMENT_3D ( 'NONE', #324, #281, #178 ) ;
#334 = ORIENTED_EDGE ( 'NONE', *, *, #81, .F. ) ;
#335 = DATE_AND_TIME ( #19, #108 ) ;
ENDSEC;
END-ISO-10303-21;
